I Walk the Line

by Johnny Cash • Lesson #6 • Nov 17, 2013

Editor’s Notes

In this lesson I’ll teach you how to play the Johnny Cash classic I Walk The Line, which was originally released in 1956. My tutorial is based on a solo acoustic guitar approach, which lets you capture the sound of the recorded album version all by yourself. I have two videos… a newer one (lesson #262) which focuses entirely on the intro riff, in addition to an older one (lesson #6) where I briefly explain how to play the entire song. My print-friendly song sheet includes tabs/notes/lyrics/chords to account for both of these video lessons.

Intro Tutorial (Lesson #262)

Timestamps:

  • 0:00 Lesson overview
  • 2:19 Variation 1: bass notes only
  • 13:26 Variation 2: adding simple chord strums
  • 21:27 Variation 3: adding muted “boom-chicka” strumming
  • 25:18 Farewell

Full Song Tutorial (Lesson #6)

Print-Friendly Song Sheet 5 pages

Follow along with my print-friendly guide for this song! It’s available for purchase at Musicnotes.com, the web’s leading provider of licensed sheet music.

On the fence? Here's a guide I made showing the purchase & print process, including answers to common questions about my song sheets.

Buy at Musicnotes.com

Save 50% on this song sheet by applying the November 2022 code at Musicnotes checkout: R4LRZPDME7 (click to copy). Thanks for being a Premium supporter!

Song Notes Premium includes a 50% discount code you can use when buying any of my song sheets from Musicnotes.com. For the current month's code, upgrade to premium or log in.

Notes and tabs

Capo 1st Fret, Standard Tuning

To play this song along with the Johnny Cash album recording, put a capo on the 1st fret. If playing along doesn’t matter to you, you can play it without a capo (using the chords shown here) just fine.

Guitar Chords Used

Here are the chords you’ll need to play this song. These are all quite common open chords, with the B7 being the most rare of the bunch. Don’t let the B7 scare you off! It is a useful chord to have in your repertoire.

e-|---0---2---0---2----3---
B-|---2---3---0---0----0---
G-|---2---2---1---2----0---
D-|---2---0---2---1----0---
A-|---0-------2---2----2---
E-|-----------0--------3---
      A   D   E   B7   G

Basic strum pattern

The key to this song, as well as most of Johnny Cash’s tunes with his characteristic boom-chicka-boom-chicka sound, is understanding the strumming pattern. Specifically, how the alternating bassline is employed with each chord played. The basic idea is to (1) strum the chord’s bassnote once, (2) play a down-up strum of the chord, (3) play a lower/higher bassnote of the same chord, (4) play a down-up strum of the chord.

Here’s how you would do this with the A chord. Note, this shows a bassnote that alternates between the 5th string and the 6th string.

e-|---0---|----------------------------------------------------
B-|---2---|----------------------------------------------------
G-|---2---|------2-2-----2-2-----2-2-----2-2-----2-2-----2-2---
D-|---2---|------2-2-----2-2-----2-2-----2-2-----2-2-----2-2--- etc
A-|---0---|---0---------------0---------------0----------------
E-|-------|-----------0---------------0---------------0--------
      A

For some chords, you may want to move the bassnote up instead of down. Take B7 for example: here, I alternate between the 5th and 4th string for the bassnote.

e-|---2---|----------------------------------------------------
B-|---0---|------0-0-----0-0-----0-0-----0-0-----0-0-----0-0---
G-|---2---|------2-2-----2-2-----2-2-----2-2-----2-2-----2-2---
D-|---1---|-----------1---------------1---------------1-------- etc
A-|---2---|---2---------------0---------------0----------------
E-|-------|----------------------------------------------------
      B7

You can employ this technique for every chord using this basic approach.

Intro Tab

Here is the tab to the intro of this song. If your goal is to memorize this and play it note-for-note, I strongly recommend learning the bassline separately from the chord strumming. Once you have one mastered, move to the other. Doing both at the same time may be tricky.

See PDF for tab.

Transition Between Verses

Here are the tabs for the transition between each verse, where the song in fact changes key. After you walk up/down to the new chord, stay on that chord as long as you like. This is where Johnny Cash will do the “Hmmmmmm…” vocal, which helps establish the new key in which he is about to play.

From E up to A:

e-|---0---------------|--------------------------------------------------
B-|---0---------------|--------------------------------------------------
G-|---1---------------|-----2-2-----2-2-----2-2-----2-2-----2-2-----2-2--
D-|---2---------------|-----2-2-----2-2-----2-2-----2-2-----2-2-----2-2-- etc
A-|---2---------------|--0---------------0---------------0---------------
E-|---0------0--2--4--|----------0---------------0---------------0-------
      E                  A

From A up to D:

e-|---0---------------|--------------------------------------------------
B-|---2---------------|-----3-3-----3-3-----3-3-----3-3-----3-3-----3-3--
G-|---2---------------|-----2-2-----2-2-----2-2-----2-2-----2-2-----2-2--
D-|---2---------------|--0---------------0---------------0--------------- etc
A-|---0------0--2--4--|----------0---------------0---------------0-------
E-|-------------------|--------------------------------------------------
      A                  D

From D down to A:

e-|---2---------------|--------------------------------------------------
B-|---3---------------|--------------------------------------------------
G-|---2---------------|-----2-2-----2-2-----2-2-----2-2-----2-2-----2-2--
D-|---0------0--------|-----2-2-----2-2-----2-2-----2-2-----2-2-----2-2-- etc
A-|-------------4--2--|--0---------------0---------------0---------------
E-|-------------------|----------0---------------0---------------0-------
      D                  A

From A down to E:

e-|---0---------------|--------------------------------------------------
B-|---2---------------|--------------------------------------------------
G-|---2---------------|-----1-1-----1-1-----1-1-----1-1-----1-1-----1-1--
D-|---2---------------|-----2-2-----2-2-----2-2-----2-2-----2-2-----2-2-- etc
A-|---0------0--------|----------2---------------2---------------2-------
E-|-------------4--2--|--0---------------0---------------0---------------
      A                  E

Chord progressions

See PDF for chord progression diagram.

Browse Related Lessons

Click any tag below to view other lessons I've made in that category:

About Song Notes

Hey there! My name is David Potsiadlo, and I'm the creator of the 400+ weekly lessons here at Song Notes, going back to 2013. Here’s my guitar story »

Get Free Lessons Each Week!

Join the 20,000+ readers who get my new lessons dropped in their inbox each week. I teach a fun mix of songs, weekly riffs, practice ideas, and more!

Enjoy my lessons? Buy me a beer!

If this and my other lessons have proven helpful to you, please consider making a one-time donation to my tip jar. Contributions of any amount help make this project possible (including the many, many hours I put into it).

Thanks!


Subscribe to my YouTube channel

Be sure to never miss a lesson by subscribing on YouTube. I put out 2-3 new videos every week. These include full song lessons, as well as covers, practice tips, behind-the-scenes updates. Thanks!


Recent Lessons

Browse All Recent Lessons →

Browse my all lessons

By lesson type

By technique

By musical genre

By decade

By musical key

By popular artist


← back to homepage